Студопедия

КАТЕГОРИИ:


Архитектура-(3434)Астрономия-(809)Биология-(7483)Биотехнологии-(1457)Военное дело-(14632)Высокие технологии-(1363)География-(913)Геология-(1438)Государство-(451)Демография-(1065)Дом-(47672)Журналистика и СМИ-(912)Изобретательство-(14524)Иностранные языки-(4268)Информатика-(17799)Искусство-(1338)История-(13644)Компьютеры-(11121)Косметика-(55)Кулинария-(373)Культура-(8427)Лингвистика-(374)Литература-(1642)Маркетинг-(23702)Математика-(16968)Машиностроение-(1700)Медицина-(12668)Менеджмент-(24684)Механика-(15423)Науковедение-(506)Образование-(11852)Охрана труда-(3308)Педагогика-(5571)Полиграфия-(1312)Политика-(7869)Право-(5454)Приборостроение-(1369)Программирование-(2801)Производство-(97182)Промышленность-(8706)Психология-(18388)Религия-(3217)Связь-(10668)Сельское хозяйство-(299)Социология-(6455)Спорт-(42831)Строительство-(4793)Торговля-(5050)Транспорт-(2929)Туризм-(1568)Физика-(3942)Философия-(17015)Финансы-(26596)Химия-(22929)Экология-(12095)Экономика-(9961)Электроника-(8441)Электротехника-(4623)Энергетика-(12629)Юриспруденция-(1492)Ядерная техника-(1748)

Slow down




I call your name

Long tall Sally

LONG TALL SALLY

written by Robert Blackwell, Enotris Johnson, and Little Richard tab transcribed by Collins Crapo

(later covered by the Beatles in the key of G) F

I'm gonna tell Aunt Mary 'bout Uncle John

He claims he has the misery but he has a lot of fun

 

CHORUS:

Bb F C Bb F

Oh baby, yeah baby, wo baby, we'll be havin' some fun tonight

 

Verse 2:

Well, long tall Sally, she's built for speed She's got everything that Uncle John needs

(chorus) Verse 3:

I saw Uncle John with bald-headed Sally

He saw Aunt Mary comin' and he ducked back in the alley (chorus)

(instrumental, pattern of verse-chorus-verse-chorus) (repeat verse 2)

(chorus)

 

(repeat verse 3) (chorus)

F

We're gonna have some fun tonight Have some fun tonight

Bb

Have some fun tonight F

Everything's all right

C Bb F


 

Have some fun, yeah, some fun tonight

 

From: hb3@aixterm2.urz.uni-heidelberg.de (Franz Lemmermeyer)

 

 

I call your name (Lennon/McCartney)

 

F#7 E7 B7 (hold)

 

|------------0--0-0--0------------------0--0-0--2-

|------------2--2-2--2------------------3--3-3--0-

|------------3--3-3--3---0---0----------1--1-1--2-

|----0-2--4--4--4-4--4-4---2---2-0---2--2--2-2--1-

|-2----------4--4-4--4-------------2----2--2-2--2-

|---------------------------------------0--0-0--x-

 

E7 C#7

I call your name but you're not there F#7 B7

Was I to blame for being unfair

E7 C#7

Oh I can't sleep at night since you've been gone F#7 A

I never weep at night, I can't go on

 

A

Don't you know I can't take it C#m

I don't know who can

F#

I'm not going to make it

C B7

I'm not that kind of man.

 

Oh I can't sleep at night but just the same I ever weep at night I call your name.

 

 

C#7 x43404 (B7 moved up to frets)

 

 

# Franz Lemmermeyer   ** Die endgueltige
# Erwin-Rohde-Str. ** Teilung
_#_ ( # ) 69120 Heidelberg   ** ** Deutschlands, das ist unser

 

`&' ********************************************************

*

*

*

*

/ O \ hb3@ix.urz.uni-heidelberg.de ** Auftrag! * ( === ) ***** Chlodwig Poth ****

`---' ********************************************************

 

 

TAB: Slow Down

MUSIC BY: Larry Williams (Covered by the Beatles on the

Slow Down/Matchbox single)

TABBED BY: The Beatles Central Team (jpgr_beatles@yahoo.com)

 

 



Intro:


 

The following two measures will be refered to from now on as Lick1. This lick is repeated many times throughout the song.

 

C

E|---------------------------------|--------------------------------

B|---------------------------------|---------8--10---10p8----10p8---

G|---------------------------------|-7/9----------------------------

D|---------------------------------|--------------------------------

A|---------------------------------|--------------------------------

E|---------------------------------|--------------------------------

^ ^ ^ ^ ^ ^ ^ ^ (Repeat Lick1 3 more times)

F (This is Lick2)

E|---------------------------------|--------------------------------

B|---------------------------------|---------13--15--15p13---15-12--

G|---------------------------------|-12/14--------------------------- 13--

D|---------------------------------|--------------------------------

A|---------------------------------|--------------------------------

E|---------------------------------|--------------------------------

^ ^ ^ ^ ^ ^ ^ ^

 

E|---------------------------------|--------------------------------

B|-/13-----------------------------|---------13--15--15p13---15-7---

G|-/14-----------------------------|-12/14--------------------- 8---

D|---------------------------------|--------------------------------

A|---------------------------------|--------------------------------

E|---------------------------------|--------------------------------

^ ^ ^ ^ ^ ^ ^ ^

C

E|---------------------------------|--------------------------------

B|-/8------------------------------|---------8--10---10p8--------------------------- 10-7---

G|-/9------------------------------|-7/9----------------------------- 8---

D|---------------------------------|--------------------------------

A|---------------------------------|--------------------------------

E|---------------------------------|--------------------------------

^ ^ ^ ^ ^ ^ ^ ^

 

E|---------------------------------|--------------------------------

B|-/8------------------------------|---------8--10---10p8----10p8---

G|-/9------------------------------|-7/9----------------------------

D|---------------------------------|--------------------------------

A|---------------------------------|--------------------------------

^ ^ ^ ^ ^ ^ ^ ^
G       (This is Lick3)    

 

E|---------------------------------|--------------------------------

 

 

E|---------------------------------|--------------------------------

B|---------------------------------|---------15--17--17p15---17-12--

G|---------------------------------|-14/16--------------------------- 13--

D|---------------------------------|--------------------------------

A|---------------------------------|--------------------------------

E|---------------------------------|--------------------------------

^ ^ ^ ^ ^ ^ ^ ^ F

E|---------------------------------|--------------------------------

B|-/13-----------------------------|--------------------------------

G|-/14-----------------------------|--------------------------------

D|---------------------------------|--------------------------------

A|---------------------------------|--------------------------------

E|---------------------------------|--------------------------------

^ ^ ^ ^ ^ ^ ^ ^

C


 

E|---------------------------------|--------------------------------

B|-7/8-----------------------------|---------8--10---10p8--------------------------- 10-7---

G|-8/9-----------------------------|-7/9----------------------------- 8---

D|---------------------------------|--------------------------------

A|---------------------------------|--------------------------------

E|---------------------------------|--------------------------------

^ ^ ^ ^ ^ ^ ^ ^

 

E|---------------------------------|--------------------------------

B|-/8------------------------------|---------8--10---10p8--- 10-----

G|-/9------------------------------|-7/9----------------------------

D|---------------------------------|--------------------------------

A|---------------------------------|--------------------------------

E|---------------------------------|--------------------------------

^ ^ ^ ^ ^ ^ ^ ^

 

 

Verse 1:

 

C

Well come on, pretty baby, won't you walk with me? Come on, pretty baby, won't you talk with me?

Come on, pretty baby, give me one more chance

F

Try and save our romance! Slow down! (Play Lick2)

 

Bridge:

 

F C

Baby now you're movin' way too fast

 

(Play Lick1 twice)

G F C

You gotta gimme little lovin' gimme little lovin' Ow! if you want our love to last

(Play Lick1 twice)

 

 

Verse 2:

 

C

Well I used to walk you home, baby, after school carry your books home too

But now you got a boyfriend down the street

F

Baby what you tryin' to do a-do? You better slow down! (Play Lick2)

 

Bridge:

 

F C

Baby now you're movin' way too fast


 

(Play Lick1 twice)

G F C

You gotta gimme little lovin' gimme little lovin' Brr! if you want our love to last

(Play Lick1 once)

 

 

Solo:

 

C

E|---------------------------------|--------------------------------

B|---------------------------------|--------------------------------

G|---------------------------------|--------------------------------

D|----------------------1----------|-----------------1---3----------

A|-----------------1h3-------------|-3-------------------------------------------- 3----------------------

E|---------3---3-------------------|--------------------------------

^ ^ ^ ^ ^ ^ ^ ^

 

E|---------------------------------|--------------------------------

B|---------------------------------|--------------------------------

G|---------------------------------|--------------------------------

D|-3/5-----5-------5\3--1----------|-----------------1---3----------

A|-----------------------------3---|-1h3-----3----------------- 3---

E|---------------------------------|--------------------------------

^ ^ ^ ^ ^ ^ ^ ^

 

E|---------------------------------|--------------------------------

B|---------------------------------|--------------------------------

G|------3--------------------------|--------------------------------

D|-/5----------5\3-----1-----------|-------------------------1--3---

A|-----------------------------3---|-1/3---- 3----------------------

E|---------------------------------|--------------------------------

^ ^ ^ ^ ^ ^ ^ ^

 

E|---------------------------------|--------------------------------

B|---------------------------------|--------------------------------

G|---------3-----------------------|-----3-------------- 3----------

D|-3/5-------------5\3--1----------|-3/5---------3/5---------3/5----

A|---------------------------------|--------------------------------

^ ^ ^ ^ ^ ^ ^ ^
C       F      

 

E|---------------------------------|--------------------------------

 

 

E|---------------------------------|--------------------------------

B|---------------------------------|--------------------------------

G|---------3-----------------------|--------------------------------

D|-3/5-------------5\3--1------3---|-------------------------------------- 3----------------------

A|---------------------------------|--------------------------------

E|---------------------------------|-1------------------------------

^ ^ ^ ^ ^ ^ ^ ^

 

E|---------------------------------|--------------------------------

B|---------------------------------|--------------------------------

G|---------------------------------|----------------------8-----10b(12)

D|-3b(4)-------3b(4)-------1-------|-----------------8h10-----------

A|---------------------------------|-------- 10---------------------

E|---------------------------------|--------------------------------

^ ^ ^ ^ ^ ^ ^ ^

C

E|---------------------------------|--------------------------------

B|---------------------------------|--------------------------------


 

G|---------10b(12)-10------8-------|-----------------8---10---------

D|-----------------------------10--|-------------------------------------- 10---------------------

A|---------------------------------|--------------------------------

E|---------------------------------|--------------------------------

^ ^ ^ ^ ^ ^ ^ ^

 

E|-----8---------------------------|--------------------------------

B|-8-------8-----------------------|-8-------8-----------8------ 8--

G|-10b(12)-10b(12)-10b(12)p8-------|-10b(12)-10b(12)-----10b(12)-10b(12) D|---------------------------------|--------------------------------

A|---------------------------------|--------------------------------

E|---------------------------------|--------------------------------

^ ^ ^ ^ ^ ^ ^ ^

G

E|---------------------------------|--------------------------------

B|-8-------8-----------------------|-------- 8----------------------

G|-10b(12)-10b(12)-(12)r10-8-------|----------------10/12-12--10/12- D|---------------------------------|--------------------------------

A|---------------------------------|--------------------------------

E|---------------------------------|--------------------------------

^ ^ ^ ^ ^ ^ ^ ^

F

E|---------------------------------|---------8---------- 8----------

B|-8-----------8-------------------|---------7---------- 6----------

G|-----10/12-------10---8/12-------|--------------------------------

D|---------------------------------|--------------------------------

A|---------------------------------|--------------------------------

E|---------------------------------|--------------------------------

^ ^ ^ ^ ^ ^ ^ ^

C

E|-8-------8---8-------8-----------|---------8-------------- 8------

B|-7-------7---6-------7-----------|---------8-------------- 8------

G|---------------------------------|-----------------(12)r10--------

D|---------------------------------|--------------------------------

A|---------------------------------|--------------------------------

E|---------------------------------|--------------------------------

^ ^ ^ ^ ^ ^ ^ ^

 

E|---------8------------8----------|--------------------------------

B|---------8------------8----------|-------------------------------- G|-10b(12)---10 10b(12)------------|---------(12)r10-10p8-----------

D|---------------------------------|---------------------10--8--10--

A|---------------------------------|--------------------------------

E|---------------------------------|--------------------------------

^ ^ ^ ^ ^ ^ ^ ^

 

Well, you E|--------------8------------------|

B|-8h9-----8-----------------------|

G|-----------------8---8-----------|

D|---------------------------------|

A|---------------------------------|

E|---------------------------------|

^ ^ ^ ^ Verse 2:

C

know that I love you, tell the world I do Come on, pretty baby, why can't you be true?

I need you badly, baby, oh so bad


 

F

The best little woman I ever had Slow down! (Play Lick2)

 

Bridge:

 

F C

Baby now you're movin' way too fast

 

(Play Lick1 twice)

G F C

You gotta gimme little lovin' gimme little lovin' Brr! if you want our love to last

(Play Lick1 once)

 

 

Coda:

 

C

E|---------------------------------|----------------------------- 3------

B|---------------------------------|----------------------------- 3------

G|---------------------------------|----------------------------- 3------

D|-3---3---1-----------------------|----------------------------- 2------

A|---------------------------------|-----1---2---3------------------------ 3------

E|-----------------3-------1-------|-3------------------------------

^ ^ ^ ^ ^ ^ ^ ^

 

-----------------------------------------------------------------

| Tabbed By the Beatles Central Team (jpgr_beatles@yahoo.com) |

| Visit Beatles Central for every major release by The Beatles |

| in MIDI and Tab form (over 250 songs), as well as biographies.|

| http://members.tripod.com/~jpgr_beatles/index.html |

-----------------------------------------------------------------

 





Дата добавления: 2014-12-23; Просмотров: 60; Нарушение авторских прав?;


Нам важно ваше мнение! Был ли полезен опубликованный материал? Да | Нет



ПОИСК ПО САЙТУ:





studopedia.su - Студопедия (2013 - 2017) год. Не является автором материалов, а предоставляет студентам возможность бесплатного обучения и использования! Последнее добавление ip: 54.81.59.211
Генерация страницы за: 0.037 сек.